ISO-10303-21;
HEADER;
FILE_DESCRIPTION (( 'STEP AP203' ),
    '1' );
FILE_NAME ('Q-ZDWWP-R12-12.7-1064-SHM.STEP',
    '2020-12-22T09:00:59',
    ( '' ),
    ( '' ),
    'SwSTEP 2.0',
    'SolidWorks 2020',
    '' );
FILE_SCHEMA (( 'CONFIG_CONTROL_DESIGN' ));
ENDSEC;

DATA;
#1 = DIRECTION ( 'NONE',  ( 0.000000000000000000, 0.000000000000000000, 1.000000000000000000 ) ) ;
#2 = ORIENTED_EDGE ( 'NONE', *, *, #26, .T. ) ;
#3 = DIRECTION ( 'NONE',  ( 0.000000000000000000, 0.000000000000000000, 1.000000000000000000 ) ) ;
#4 = DIRECTION ( 'NONE',  ( 1.000000000000000000, 0.000000000000000000, 0.000000000000000000 ) ) ;
#5 = EDGE_CURVE ( 'NONE', #91, #183, #30, .T. ) ;
#6 = DIRECTION ( 'NONE',  ( 0.000000000000000000, 0.000000000000000000, 1.000000000000000000 ) ) ;
#7 = DIRECTION ( 'NONE',  ( 0.000000000000000000, 0.000000000000000000, 1.000000000000000000 ) ) ;
#8 = ORIENTED_EDGE ( 'NONE', *, *, #5, .T. ) ;
#9 = AXIS2_PLACEMENT_3D ( 'NONE', #317, #290, #238 ) ;
#10 = APPROVAL ( #329, 'UNSPECIFIED' ) ;
#11 = ORIENTED_EDGE ( 'NONE', *, *, #279, .F. ) ;
#12 = DIRECTION ( 'NONE',  ( -0.000000000000000000, 0.000000000000000000, 1.000000000000000000 ) ) ;
#13 = ORIENTED_EDGE ( 'NONE', *, *, #100, .T. ) ;
#14 = APPROVAL_DATE_TIME ( #192, #256 ) ;
#15 = DIRECTION ( 'NONE',  ( 0.000000000000000000, 0.000000000000000000, 1.000000000000000000 ) ) ;
#16 = CIRCLE ( 'NONE', #224, 6.349999999999999645 ) ;
#17 = FACE_OUTER_BOUND ( 'NONE', #120, .T. ) ;
#18 = AXIS2_PLACEMENT_3D ( 'NONE', #304, #65, #6 ) ;
#19 = LINE ( 'NONE', #118, #113 ) ;
#20 = ORIENTED_EDGE ( 'NONE', *, *, #87, .F. ) ;
#21 = DIRECTION ( 'NONE',  ( 0.000000000000000000, 0.000000000000000000, 1.000000000000000000 ) ) ;
#22 = EDGE_CURVE ( 'NONE', #34, #59, #169, .T. ) ;
#23 = ORIENTED_EDGE ( 'NONE', *, *, #268, .F. ) ;
#24 = CARTESIAN_POINT ( 'NONE',  ( 3.000000000000000000, 0.000000000000000000, 0.000000000000000000 ) ) ;
#25 = ORIENTED_EDGE ( 'NONE', *, *, #22, .F. ) ;
#26 = EDGE_CURVE ( 'NONE', #29, #190, #102, .T. ) ;
#27 =( GEOMETRIC_REPRESENTATION_CONTEXT ( 3 ) GLOBAL_UNCERTAINTY_ASSIGNED_CONTEXT ( ( #70 ) ) GLOBAL_UNIT_ASSIGNED_CONTEXT ( ( #164, #31, #38 ) ) REPRESENTATION_CONTEXT ( 'NONE', 'WORKASPACE' ) );
#28 = DIRECTION ( 'NONE',  ( 0.000000000000000000, 0.000000000000000000, 1.000000000000000000 ) ) ;
#29 = VERTEX_POINT ( 'NONE', #297 ) ;
#30 = LINE ( 'NONE', #293, #81 ) ;
#31 =( NAMED_UNIT ( * ) PLANE_ANGLE_UNIT ( ) SI_UNIT ( $, .RADIAN. ) );
#32 = CIRCLE ( 'NONE', #37, 6.349999999999999645 ) ;
#33 = FACE_OUTER_BOUND ( 'NONE', #284, .T. ) ;
#34 = VERTEX_POINT ( 'NONE', #214 ) ;
#35 = CALENDAR_DATE ( 2020, 22, 12 ) ;
#36 = PERSON_AND_ORGANIZATION ( #194, #330 ) ;
#37 = AXIS2_PLACEMENT_3D ( 'NONE', #83, #101, #217 ) ;
#38 =( NAMED_UNIT ( * ) SI_UNIT ( $, .STERADIAN. ) SOLID_ANGLE_UNIT ( ) );
#39 = ADVANCED_FACE ( 'NONE', ( #106, #156 ), #275, .F. ) ;
#40 = DIRECTION ( 'NONE',  ( 1.000000000000000000, 0.000000000000000000, 0.000000000000000000 ) ) ;
#41 = ADVANCED_FACE ( 'NONE', ( #57, #300 ), #266, .F. ) ;
#42 = DIRECTION ( 'NONE',  ( -1.000000000000000000, -0.000000000000000000, -0.000000000000000000 ) ) ;
#43 = PERSON_AND_ORGANIZATION_ROLE ( 'design_supplier' ) ;
#44 = EDGE_CURVE ( 'NONE', #230, #46, #32, .T. ) ;
#45 = PRODUCT_DEFINITION_SHAPE ( 'NONE', 'NONE',  #206 ) ;
#46 = VERTEX_POINT ( 'NONE', #321 ) ;
#47 = CIRCLE ( 'NONE', #257, 12.69999999999999929 ) ;
#48 = CARTESIAN_POINT ( 'NONE',  ( -1.614212418857619014, 0.000000000000000000, 6.349999999999999645 ) ) ;
#49 = ORIENTED_EDGE ( 'NONE', *, *, #67, .F. ) ;
#50 = FACE_OUTER_BOUND ( 'NONE', #334, .T. ) ;
#51 = CARTESIAN_POINT ( 'NONE',  ( -3.000000000000000000, 1.555301434917138433E-15, -12.69999999999999929 ) ) ;
#52 = DIRECTION ( 'NONE',  ( 1.000000000000000000, 0.000000000000000000, 0.000000000000000000 ) ) ;
#53 = DATE_TIME_ROLE ( 'creation_date' ) ;
#54 = ADVANCED_FACE ( 'NONE', ( #77 ), #185, .T. ) ;
#55 = CARTESIAN_POINT ( 'NONE',  ( -1.614212418857619014, 0.000000000000000000, 0.000000000000000000 ) ) ;
#56 = PERSON_AND_ORGANIZATION_ROLE ( 'creator' ) ;
#57 = FACE_OUTER_BOUND ( 'NONE', #129, .T. ) ;
#58 = AXIS2_PLACEMENT_3D ( 'NONE', #149, #258, #21 ) ;
#59 = VERTEX_POINT ( 'NONE', #269 ) ;
#60 = DATE_AND_TIME ( #197, #162 ) ;
#61 = AXIS2_PLACEMENT_3D ( 'NONE', #62, #225, #68 ) ;
#62 = CARTESIAN_POINT ( 'NONE',  ( 1.500000000000000444, 6.349999999999999645, 0.000000000000000000 ) ) ;
#63 = SECURITY_CLASSIFICATION_LEVEL ( 'unclassified' ) ;
#64 = ADVANCED_FACE ( 'NONE', ( #33 ), #201, .F. ) ;
#65 = DIRECTION ( 'NONE',  ( -1.000000000000000000, -0.000000000000000000, -0.000000000000000000 ) ) ;
#66 = DIRECTION ( 'NONE',  ( 0.000000000000000000, 0.000000000000000000, 1.000000000000000000 ) ) ;
#67 = EDGE_CURVE ( 'NONE', #103, #176, #221, .T. ) ;
#68 = DIRECTION ( 'NONE',  ( -0.000000000000000000, 0.000000000000000000, 1.000000000000000000 ) ) ;
#69 = ORIENTED_EDGE ( 'NONE', *, *, #178, .T. ) ;
#70 = UNCERTAINTY_MEASURE_WITH_UNIT (LENGTH_MEASURE( 1.000000000000000082E-05 ), #164, 'distance_accuracy_value', 'NONE');
#71 = AXIS2_PLACEMENT_3D ( 'NONE', #252, #109, #220 ) ;
#72 = FACE_OUTER_BOUND ( 'NONE', #163, .T. ) ;
#73 = ORIENTED_EDGE ( 'NONE', *, *, #67, .T. ) ;
#74 = DIRECTION ( 'NONE',  ( -1.000000000000000000, -0.000000000000000000, -0.000000000000000000 ) ) ;
#75 = CARTESIAN_POINT ( 'NONE',  ( 1.500000000000000888, 0.000000000000000000, 6.349999999999999645 ) ) ;
#76 = ORIENTED_EDGE ( 'NONE', *, *, #87, .T. ) ;
#77 = FACE_OUTER_BOUND ( 'NONE', #325, .T. ) ;
#78 = APPROVAL ( #218, 'UNSPECIFIED' ) ;
#79 = APPROVAL_ROLE ( '' ) ;
#80 = CARTESIAN_POINT ( 'NONE',  ( -1.614212418857619014, 0.000000000000000000, 12.69999999999999929 ) ) ;
#81 = VECTOR ( 'NONE', #132, 1000.000000000000000 ) ;
#82 = CARTESIAN_POINT ( 'NONE',  ( -1.500000000000000444, 0.000000000000000000, 0.000000000000000000 ) ) ;
#83 = CARTESIAN_POINT ( 'NONE',  ( 3.000000000000000888, 0.000000000000000000, 0.000000000000000000 ) ) ;
#84 = COORDINATED_UNIVERSAL_TIME_OFFSET ( 8, 0, .AHEAD. ) ;
#85 = CIRCLE ( 'NONE', #18, 6.349999999999999645 ) ;
#86 = PERSON_AND_ORGANIZATION ( #194, #330 ) ;
#87 = EDGE_CURVE ( 'NONE', #59, #34, #160, .T. ) ;
#88 = VECTOR ( 'NONE', #292, 1000.000000000000000 ) ;
#89 = PERSON_AND_ORGANIZATION ( #194, #330 ) ;
#90 = ORIENTED_EDGE ( 'NONE', *, *, #239, .T. ) ;
#91 = VERTEX_POINT ( 'NONE', #110 ) ;
#92 = DIRECTION ( 'NONE',  ( -1.000000000000000000, -0.000000000000000000, -0.000000000000000000 ) ) ;
#93 = ORIENTED_EDGE ( 'NONE', *, *, #311, .T. ) ;
#94 = CYLINDRICAL_SURFACE ( 'NONE', #228, 6.349999999999999645 ) ;
#95 = ORIENTED_EDGE ( 'NONE', *, *, #223, .F. ) ;
#96 = CARTESIAN_POINT ( 'NONE',  ( -1.614212418857619014, 7.776507174585692163E-16, -6.349999999999999645 ) ) ;
#97 = ADVANCED_FACE ( 'NONE', ( #17 ), #326, .F. ) ;
#98 = ORIENTED_EDGE ( 'NONE', *, *, #44, .T. ) ;
#99 = CARTESIAN_POINT ( 'NONE',  ( -1.614212418857619014, 0.000000000000000000, 0.000000000000000000 ) ) ;
#100 = EDGE_CURVE ( 'NONE', #29, #91, #270, .T. ) ;
#101 = DIRECTION ( 'NONE',  ( -1.000000000000000000, -0.000000000000000000, -0.000000000000000000 ) ) ;
#102 = LINE ( 'NONE', #80, #202 ) ;
#103 = VERTEX_POINT ( 'NONE', #251 ) ;
#104 = DIRECTION ( 'NONE',  ( 0.000000000000000000, 0.000000000000000000, 1.000000000000000000 ) ) ;
#105 = AXIS2_PLACEMENT_3D ( 'NONE', #144, #198, #302 ) ;
#106 = FACE_BOUND ( 'NONE', #134, .T. ) ;
#107 = PERSON_AND_ORGANIZATION ( #194, #330 ) ;
#108 = CIRCLE ( 'NONE', #147, 12.69999999999999929 ) ;
#109 = DIRECTION ( 'NONE',  ( -1.000000000000000000, -0.000000000000000000, -0.000000000000000000 ) ) ;
#110 = CARTESIAN_POINT ( 'NONE',  ( 3.000000000000000000, 1.555301434917138433E-15, -12.69999999999999929 ) ) ;
#111 = CC_DESIGN_PERSON_AND_ORGANIZATION_ASSIGNMENT ( #36, #296, ( #255 ) ) ;
#112 = CARTESIAN_POINT ( 'NONE',  ( -1.500000000000000444, 0.000000000000000000, 0.000000000000000000 ) ) ;
#113 = VECTOR ( 'NONE', #313, 1000.000000000000000 ) ;
#114 = COORDINATED_UNIVERSAL_TIME_OFFSET ( 8, 0, .AHEAD. ) ;
#115 = EDGE_CURVE ( 'NONE', #46, #230, #85, .T. ) ;
#116 = VECTOR ( 'NONE', #166, 1000.000000000000000 ) ;
#117 = ORIENTED_EDGE ( 'NONE', *, *, #115, .F. ) ;
#118 = CARTESIAN_POINT ( 'NONE',  ( -1.614212418857619014, 7.776507174585692163E-16, -6.349999999999999645 ) ) ;
#119 = CC_DESIGN_PERSON_AND_ORGANIZATION_ASSIGNMENT ( #141, #203, ( #171 ) ) ;
#120 = EDGE_LOOP ( 'NONE', ( #150, #117, #90, #69 ) ) ;
#121 = FACE_OUTER_BOUND ( 'NONE', #237, .T. ) ;
#122 = ORIENTED_EDGE ( 'NONE', *, *, #239, .F. ) ;
#123 = DIRECTION ( 'NONE',  ( 0.000000000000000000, 0.000000000000000000, 1.000000000000000000 ) ) ;
#124 = ORIENTED_EDGE ( 'NONE', *, *, #268, .T. ) ;
#125 = APPROVAL_PERSON_ORGANIZATION ( #86, #10, #199 ) ;
#126 = PLANE ( 'NONE',  #247 ) ;
#127 = ORIENTED_EDGE ( 'NONE', *, *, #100, .F. ) ;
#128 = CYLINDRICAL_SURFACE ( 'NONE', #191, 6.349999999999999645 ) ;
#129 = EDGE_LOOP ( 'NONE', ( #127, #264 ) ) ;
#130 = CARTESIAN_POINT ( 'NONE',  ( -1.614212418857619014, 0.000000000000000000, 6.349999999999999645 ) ) ;
#131 = ORIENTED_EDGE ( 'NONE', *, *, #311, .F. ) ;
#132 = DIRECTION ( 'NONE',  ( -1.000000000000000000, -0.000000000000000000, -0.000000000000000000 ) ) ;
#133 = COORDINATED_UNIVERSAL_TIME_OFFSET ( 8, 0, .AHEAD. ) ;
#134 = EDGE_LOOP ( 'NONE', ( #261, #49 ) ) ;
#135 = PERSON_AND_ORGANIZATION ( #194, #330 ) ;
#136 = MECHANICAL_CONTEXT ( 'NONE', #140, 'mechanical' ) ;
#137 = APPLICATION_CONTEXT ( 'configuration controlled 3d designs of mechanical parts and assemblies' ) ;
#138 = CIRCLE ( 'NONE', #58, 6.349999999999999645 ) ;
#139 = APPROVAL_DATE_TIME ( #306, #10 ) ;
#140 = APPLICATION_CONTEXT ( 'configuration controlled 3d designs of mechanical parts and assemblies' ) ;
#141 = PERSON_AND_ORGANIZATION ( #194, #330 ) ;
#142 = APPROVAL_PERSON_ORGANIZATION ( #271, #256, #274 ) ;
#143 = EDGE_CURVE ( 'NONE', #183, #190, #47, .T. ) ;
#144 = CARTESIAN_POINT ( 'NONE',  ( -1.614212418857619014, 0.000000000000000000, 0.000000000000000000 ) ) ;
#145 = ORIENTED_EDGE ( 'NONE', *, *, #44, .F. ) ;
#146 = DIRECTION ( 'NONE',  ( -1.000000000000000000, -0.000000000000000000, -0.000000000000000000 ) ) ;
#147 = AXIS2_PLACEMENT_3D ( 'NONE', #24, #320, #151 ) ;
#148 = CC_DESIGN_APPROVAL ( #10, ( #171 ) ) ;
#149 = CARTESIAN_POINT ( 'NONE',  ( 1.500000000000000888, 0.000000000000000000, 0.000000000000000000 ) ) ;
#150 = ORIENTED_EDGE ( 'NONE', *, *, #177, .F. ) ;
#151 = DIRECTION ( 'NONE',  ( 0.000000000000000000, 0.000000000000000000, 1.000000000000000000 ) ) ;
#152 = EDGE_LOOP ( 'NONE', ( #319, #291 ) ) ;
#153 = CYLINDRICAL_SURFACE ( 'NONE', #182, 6.349999999999999645 ) ;
#154 = FACE_OUTER_BOUND ( 'NONE', #288, .T. ) ;
#155 = VECTOR ( 'NONE', #146, 1000.000000000000000 ) ;
#156 = FACE_OUTER_BOUND ( 'NONE', #152, .T. ) ;
#157 = APPROVAL_STATUS ( 'not_yet_approved' ) ;
#158 = DIRECTION ( 'NONE',  ( 0.000000000000000000, 0.000000000000000000, 1.000000000000000000 ) ) ;
#159 = COORDINATED_UNIVERSAL_TIME_OFFSET ( 8, 0, .AHEAD. ) ;
#160 = CIRCLE ( 'NONE', #227, 6.349999999999999645 ) ;
#161 = ADVANCED_FACE ( 'NONE', ( #154 ), #126, .F. ) ;
#162 = LOCAL_TIME ( 17, 0, 59.00000000000000000, #159 ) ;
#163 = EDGE_LOOP ( 'NONE', ( #299, #216, #2, #205 ) ) ;
#164 =( LENGTH_UNIT ( ) NAMED_UNIT ( * ) SI_UNIT ( .MILLI., .METRE. ) );
#165 = DIRECTION ( 'NONE',  ( 0.000000000000000000, 0.000000000000000000, -1.000000000000000000 ) ) ;
#166 = DIRECTION ( 'NONE',  ( -1.000000000000000000, -0.000000000000000000, -0.000000000000000000 ) ) ;
#167 = COORDINATED_UNIVERSAL_TIME_OFFSET ( 8, 0, .AHEAD. ) ;
#168 = CARTESIAN_POINT ( 'NONE',  ( 3.000000000000000000, 0.000000000000000000, 0.000000000000000000 ) ) ;
#169 = CIRCLE ( 'NONE', #307, 6.349999999999999645 ) ;
#170 = AXIS2_PLACEMENT_3D ( 'NONE', #168, #42, #66 ) ;
#171 = SECURITY_CLASSIFICATION ( '', '', #63 ) ;
#172 = LOCAL_TIME ( 17, 0, 59.00000000000000000, #167 ) ;
#173 = VERTEX_POINT ( 'NONE', #210 ) ;
#174 = EDGE_LOOP ( 'NONE', ( #310, #98 ) ) ;
#175 = AXIS2_PLACEMENT_3D ( 'NONE', #301, #15, #267 ) ;
#176 = VERTEX_POINT ( 'NONE', #231 ) ;
#177 = EDGE_CURVE ( 'NONE', #230, #173, #212, .T. ) ;
#178 = EDGE_CURVE ( 'NONE', #179, #173, #16, .T. ) ;
#179 = VERTEX_POINT ( 'NONE', #75 ) ;
#180 = AXIS2_PLACEMENT_3D ( 'NONE', #188, #240, #12 ) ;
#181 = DIRECTION ( 'NONE',  ( 0.000000000000000000, 0.000000000000000000, -1.000000000000000000 ) ) ;
#182 = AXIS2_PLACEMENT_3D ( 'NONE', #248, #276, #104 ) ;
#183 = VERTEX_POINT ( 'NONE', #51 ) ;
#184 = FACE_OUTER_BOUND ( 'NONE', #232, .T. ) ;
#185 = CYLINDRICAL_SURFACE ( 'NONE', #328, 12.69999999999999929 ) ;
#186 = CALENDAR_DATE ( 2020, 22, 12 ) ;
#187 = CC_DESIGN_PERSON_AND_ORGANIZATION_ASSIGNMENT ( #89, #43, ( #298 ) ) ;
#188 = CARTESIAN_POINT ( 'NONE',  ( 3.000000000000000000, 12.69999999999999929, 0.000000000000000000 ) ) ;
#189 = APPLICATION_PROTOCOL_DEFINITION ( 'international standard', 'config_control_design', 1994, #140 ) ;
#190 = VERTEX_POINT ( 'NONE', #312 ) ;
#191 = AXIS2_PLACEMENT_3D ( 'NONE', #99, #235, #294 ) ;
#192 = DATE_AND_TIME ( #35, #324 ) ;
#193 = EDGE_CURVE ( 'NONE', #91, #29, #108, .T. ) ;
#194 = PERSON ( 'UNSPECIFIED', 'UNSPECIFIED', 'UNSPECIFIED', ('UNSPECIFIED'), ('UNSPECIFIED'), ('UNSPECIFIED') ) ;
#195 = DATE_AND_TIME ( #186, #272 ) ;
#196 = CC_DESIGN_DATE_AND_TIME_ASSIGNMENT ( #308, #226, ( #171 ) ) ;
#197 = CALENDAR_DATE ( 2020, 22, 12 ) ;
#198 = DIRECTION ( 'NONE',  ( -1.000000000000000000, -0.000000000000000000, -0.000000000000000000 ) ) ;
#199 = APPROVAL_ROLE ( '' ) ;
#200 = CIRCLE ( 'NONE', #286, 6.349999999999999645 ) ;
#201 = PLANE ( 'NONE',  #61 ) ;
#202 = VECTOR ( 'NONE', #243, 1000.000000000000000 ) ;
#203 = PERSON_AND_ORGANIZATION_ROLE ( 'classification_officer' ) ;
#204 = ADVANCED_FACE ( 'NONE', ( #121 ), #94, .F. ) ;
#205 = ORIENTED_EDGE ( 'NONE', *, *, #143, .F. ) ;
#206 = PRODUCT_DEFINITION ( 'UNKNOWN', '', #298, #283 ) ;
#207 = CARTESIAN_POINT ( 'NONE',  ( -1.500000000000000444, 6.349999999999999645, 0.000000000000000000 ) ) ;
#208 = CARTESIAN_POINT ( 'NONE',  ( -2.999999999999999556, 0.000000000000000000, 0.000000000000000000 ) ) ;
#209 = CARTESIAN_POINT ( 'NONE',  ( 1.500000000000000888, 0.000000000000000000, 0.000000000000000000 ) ) ;
#210 = CARTESIAN_POINT ( 'NONE',  ( 1.500000000000000888, 7.776507174585692163E-16, -6.349999999999999645 ) ) ;
#211 = ORIENTED_EDGE ( 'NONE', *, *, #279, .T. ) ;
#212 = LINE ( 'NONE', #96, #88 ) ;
#213 = APPROVAL_PERSON_ORGANIZATION ( #327, #78, #79 ) ;
#214 = CARTESIAN_POINT ( 'NONE',  ( -1.500000000000000444, 0.000000000000000000, 6.349999999999999645 ) ) ;
#215 = LINE ( 'NONE', #130, #116 ) ;
#216 = ORIENTED_EDGE ( 'NONE', *, *, #193, .T. ) ;
#217 = DIRECTION ( 'NONE',  ( 0.000000000000000000, 0.000000000000000000, 1.000000000000000000 ) ) ;
#218 = APPROVAL_STATUS ( 'not_yet_approved' ) ;
#219 = DIRECTION ( 'NONE',  ( 1.000000000000000000, 0.000000000000000000, 0.000000000000000000 ) ) ;
#220 = DIRECTION ( 'NONE',  ( 0.000000000000000000, 0.000000000000000000, 1.000000000000000000 ) ) ;
#221 = CIRCLE ( 'NONE', #71, 6.349999999999999645 ) ;
#222 = DIRECTION ( 'NONE',  ( 0.000000000000000000, 0.000000000000000000, -1.000000000000000000 ) ) ;
#223 = EDGE_CURVE ( 'NONE', #190, #183, #309, .T. ) ;
#224 = AXIS2_PLACEMENT_3D ( 'NONE', #209, #265, #1 ) ;
#225 = DIRECTION ( 'NONE',  ( -1.000000000000000000, 0.000000000000000000, -0.000000000000000000 ) ) ;
#226 = DATE_TIME_ROLE ( 'classification_date' ) ;
#227 = AXIS2_PLACEMENT_3D ( 'NONE', #112, #40, #222 ) ;
#228 = AXIS2_PLACEMENT_3D ( 'NONE', #233, #92, #7 ) ;
#229 = ADVANCED_FACE ( 'NONE', ( #184 ), #128, .F. ) ;
#230 = VERTEX_POINT ( 'NONE', #285 ) ;
#231 = CARTESIAN_POINT ( 'NONE',  ( -2.999999999999999556, 0.000000000000000000, 6.349999999999999645 ) ) ;
#232 = EDGE_LOOP ( 'NONE', ( #315, #124, #73, #131 ) ) ;
#233 = CARTESIAN_POINT ( 'NONE',  ( -1.614212418857619014, 0.000000000000000000, 0.000000000000000000 ) ) ;
#234 = CC_DESIGN_APPROVAL ( #256, ( #298 ) ) ;
#235 = DIRECTION ( 'NONE',  ( -1.000000000000000000, -0.000000000000000000, -0.000000000000000000 ) ) ;
#236 = CARTESIAN_POINT ( 'NONE',  ( -3.000000000000000000, 0.000000000000000000, 0.000000000000000000 ) ) ;
#237 = EDGE_LOOP ( 'NONE', ( #145, #246, #211, #122 ) ) ;
#238 = DIRECTION ( 'NONE',  ( 0.000000000000000000, 0.000000000000000000, 1.000000000000000000 ) ) ;
#239 = EDGE_CURVE ( 'NONE', #46, #179, #335, .T. ) ;
#240 = DIRECTION ( 'NONE',  ( -1.000000000000000000, 0.000000000000000000, -0.000000000000000000 ) ) ;
#241 = ORIENTED_EDGE ( 'NONE', *, *, #253, .T. ) ;
#242 = CARTESIAN_POINT ( 'NONE',  ( -3.000000000000000000, 6.349999999999999645, 0.000000000000000000 ) ) ;
#243 = DIRECTION ( 'NONE',  ( -1.000000000000000000, -0.000000000000000000, -0.000000000000000000 ) ) ;
#244 = AXIS2_PLACEMENT_3D ( 'NONE', #242, #219, #165 ) ;
#245 = APPROVAL_DATE_TIME ( #195, #78 ) ;
#246 = ORIENTED_EDGE ( 'NONE', *, *, #177, .T. ) ;
#247 = AXIS2_PLACEMENT_3D ( 'NONE', #207, #4, #181 ) ;
#248 = CARTESIAN_POINT ( 'NONE',  ( -1.614212418857619014, 0.000000000000000000, 0.000000000000000000 ) ) ;
#249 = PERSON_AND_ORGANIZATION_ROLE ( 'creator' ) ;
#250 = CC_DESIGN_PERSON_AND_ORGANIZATION_ASSIGNMENT ( #107, #249, ( #298 ) ) ;
#251 = CARTESIAN_POINT ( 'NONE',  ( -2.999999999999999556, 7.776507174585692163E-16, -6.349999999999999645 ) ) ;
#252 = CARTESIAN_POINT ( 'NONE',  ( -2.999999999999999556, 0.000000000000000000, 0.000000000000000000 ) ) ;
#253 = EDGE_CURVE ( 'NONE', #176, #103, #200, .T. ) ;
#254 = ADVANCED_BREP_SHAPE_REPRESENTATION ( 'Q-ZDWWP-R12-12.7-1064-SHM', ( #303, #175 ), #27 ) ;
#255 = PRODUCT ( 'Q-ZDWWP-R12-12.7-1064-SHM', 'Q-ZDWWP-R12-12.7-1064-SHM', '', ( #136 ) ) ;
#256 = APPROVAL ( #157, 'UNSPECIFIED' ) ;
#257 = AXIS2_PLACEMENT_3D ( 'NONE', #236, #263, #28 ) ;
#258 = DIRECTION ( 'NONE',  ( -1.000000000000000000, -0.000000000000000000, -0.000000000000000000 ) ) ;
#259 = ORIENTED_EDGE ( 'NONE', *, *, #26, .F. ) ;
#260 = CARTESIAN_POINT ( 'NONE',  ( -1.614212418857619014, 0.000000000000000000, 0.000000000000000000 ) ) ;
#261 = ORIENTED_EDGE ( 'NONE', *, *, #253, .F. ) ;
#262 = AXIS2_PLACEMENT_3D ( 'NONE', #260, #74, #123 ) ;
#263 = DIRECTION ( 'NONE',  ( -1.000000000000000000, -0.000000000000000000, -0.000000000000000000 ) ) ;
#264 = ORIENTED_EDGE ( 'NONE', *, *, #193, .F. ) ;
#265 = DIRECTION ( 'NONE',  ( -1.000000000000000000, -0.000000000000000000, -0.000000000000000000 ) ) ;
#266 = PLANE ( 'NONE',  #180 ) ;
#267 = DIRECTION ( 'NONE',  ( 1.000000000000000000, 0.000000000000000000, 0.000000000000000000 ) ) ;
#268 = EDGE_CURVE ( 'NONE', #59, #103, #19, .T. ) ;
#269 = CARTESIAN_POINT ( 'NONE',  ( -1.500000000000000444, 7.776507174585692163E-16, -6.349999999999999645 ) ) ;
#270 = CIRCLE ( 'NONE', #170, 12.69999999999999929 ) ;
#271 = PERSON_AND_ORGANIZATION ( #194, #330 ) ;
#272 = LOCAL_TIME ( 17, 0, 59.00000000000000000, #84 ) ;
#273 = ORIENTED_EDGE ( 'NONE', *, *, #178, .F. ) ;
#274 = APPROVAL_ROLE ( '' ) ;
#275 = PLANE ( 'NONE',  #244 ) ;
#276 = DIRECTION ( 'NONE',  ( -1.000000000000000000, -0.000000000000000000, -0.000000000000000000 ) ) ;
#277 = CC_DESIGN_PERSON_AND_ORGANIZATION_ASSIGNMENT ( #135, #56, ( #206 ) ) ;
#278 = CALENDAR_DATE ( 2020, 22, 12 ) ;
#279 = EDGE_CURVE ( 'NONE', #173, #179, #138, .T. ) ;
#280 = CALENDAR_DATE ( 2020, 22, 12 ) ;
#281 = LOCAL_TIME ( 17, 0, 59.00000000000000000, #114 ) ;
#282 = ADVANCED_FACE ( 'NONE', ( #72 ), #289, .T. ) ;
#283 = DESIGN_CONTEXT ( 'detailed design', #137, 'design' ) ;
#284 = EDGE_LOOP ( 'NONE', ( #273, #11 ) ) ;
#285 = CARTESIAN_POINT ( 'NONE',  ( 3.000000000000000888, 7.776507174585692163E-16, -6.349999999999999645 ) ) ;
#286 = AXIS2_PLACEMENT_3D ( 'NONE', #208, #316, #3 ) ;
#287 = PRODUCT_RELATED_PRODUCT_CATEGORY ( 'detail', '', ( #255 ) ) ;
#288 = EDGE_LOOP ( 'NONE', ( #25, #20 ) ) ;
#289 = CYLINDRICAL_SURFACE ( 'NONE', #262, 12.69999999999999929 ) ;
#290 = DIRECTION ( 'NONE',  ( -1.000000000000000000, -0.000000000000000000, -0.000000000000000000 ) ) ;
#291 = ORIENTED_EDGE ( 'NONE', *, *, #143, .T. ) ;
#292 = DIRECTION ( 'NONE',  ( -1.000000000000000000, -0.000000000000000000, -0.000000000000000000 ) ) ;
#293 = CARTESIAN_POINT ( 'NONE',  ( -1.614212418857619014, 1.555301434917138433E-15, -12.69999999999999929 ) ) ;
#294 = DIRECTION ( 'NONE',  ( 0.000000000000000000, 0.000000000000000000, 1.000000000000000000 ) ) ;
#295 = DIRECTION ( 'NONE',  ( -1.000000000000000000, -0.000000000000000000, -0.000000000000000000 ) ) ;
#296 = PERSON_AND_ORGANIZATION_ROLE ( 'design_owner' ) ;
#297 = CARTESIAN_POINT ( 'NONE',  ( 3.000000000000000000, 0.000000000000000000, 12.69999999999999929 ) ) ;
#298 = PRODUCT_DEFINITION_FORMATION_WITH_SPECIFIED_SOURCE ( 'ANY', '', #255, .NOT_KNOWN. ) ;
#299 = ORIENTED_EDGE ( 'NONE', *, *, #5, .F. ) ;
#300 = FACE_BOUND ( 'NONE', #174, .T. ) ;
#301 = CARTESIAN_POINT ( 'NONE',  ( 0.000000000000000000, 0.000000000000000000, 0.000000000000000000 ) ) ;
#302 = DIRECTION ( 'NONE',  ( 0.000000000000000000, 0.000000000000000000, 1.000000000000000000 ) ) ;
#303 = MANIFOLD_SOLID_BREP ( 'Ðý×', #332 ) ;
#304 = CARTESIAN_POINT ( 'NONE',  ( 3.000000000000000888, 0.000000000000000000, 0.000000000000000000 ) ) ;
#305 = ADVANCED_FACE ( 'NONE', ( #50 ), #153, .F. ) ;
#306 = DATE_AND_TIME ( #280, #172 ) ;
#307 = AXIS2_PLACEMENT_3D ( 'NONE', #82, #52, #323 ) ;
#308 = DATE_AND_TIME ( #278, #281 ) ;
#309 = CIRCLE ( 'NONE', #9, 12.69999999999999929 ) ;
#310 = ORIENTED_EDGE ( 'NONE', *, *, #115, .T. ) ;
#311 = EDGE_CURVE ( 'NONE', #34, #176, #215, .T. ) ;
#312 = CARTESIAN_POINT ( 'NONE',  ( -3.000000000000000000, 0.000000000000000000, 12.69999999999999929 ) ) ;
#313 = DIRECTION ( 'NONE',  ( -1.000000000000000000, -0.000000000000000000, -0.000000000000000000 ) ) ;
#314 = CC_DESIGN_APPROVAL ( #78, ( #206 ) ) ;
#315 = ORIENTED_EDGE ( 'NONE', *, *, #22, .T. ) ;
#316 = DIRECTION ( 'NONE',  ( -1.000000000000000000, -0.000000000000000000, -0.000000000000000000 ) ) ;
#317 = CARTESIAN_POINT ( 'NONE',  ( -3.000000000000000000, 0.000000000000000000, 0.000000000000000000 ) ) ;
#318 = CC_DESIGN_DATE_AND_TIME_ASSIGNMENT ( #60, #53, ( #206 ) ) ;
#319 = ORIENTED_EDGE ( 'NONE', *, *, #223, .T. ) ;
#320 = DIRECTION ( 'NONE',  ( -1.000000000000000000, -0.000000000000000000, -0.000000000000000000 ) ) ;
#321 = CARTESIAN_POINT ( 'NONE',  ( 3.000000000000000888, 0.000000000000000000, 6.349999999999999645 ) ) ;
#322 = APPLICATION_PROTOCOL_DEFINITION ( 'international standard', 'config_control_design', 1994, #137 ) ;
#323 = DIRECTION ( 'NONE',  ( 0.000000000000000000, 0.000000000000000000, -1.000000000000000000 ) ) ;
#324 = LOCAL_TIME ( 17, 0, 59.00000000000000000, #133 ) ;
#325 = EDGE_LOOP ( 'NONE', ( #13, #8, #95, #259 ) ) ;
#326 = CYLINDRICAL_SURFACE ( 'NONE', #105, 6.349999999999999645 ) ;
#327 = PERSON_AND_ORGANIZATION ( #194, #330 ) ;
#328 = AXIS2_PLACEMENT_3D ( 'NONE', #55, #295, #158 ) ;
#329 = APPROVAL_STATUS ( 'not_yet_approved' ) ;
#330 = ORGANIZATION ( 'UNSPECIFIED', 'UNSPECIFIED', '' ) ;
#331 = SHAPE_DEFINITION_REPRESENTATION ( #45, #254 ) ;
#332 = CLOSED_SHELL ( 'NONE', ( #54, #229, #204, #64, #97, #305, #39, #282, #41, #161 ) ) ;
#333 = CC_DESIGN_SECURITY_CLASSIFICATION ( #171, ( #298 ) ) ;
#334 = EDGE_LOOP ( 'NONE', ( #23, #76, #93, #241 ) ) ;
#335 = LINE ( 'NONE', #48, #155 ) ;
ENDSEC;
END-ISO-10303-21;
